  0
SECTION
  2
HEADER
  9
$ACADVER
  1
AC1015
  9
$ACADMAINTVER
 70
     6
  9
$DWGCODEPAGE
  3
ANSI_1254
  9
$INSBASE
 10
0.0
 20
0.0
 30
0.0
  9
$EXTMIN
 10
0.0
 20
0.0
 30
0.0
  9
$EXTMAX
 10
279.4
 20
215.9
 30
0.0
  9
$LIMMIN
 10
0.0
 20
0.0
  9
$LIMMAX
 10
279.4
 20
215.9
  9
$ORTHOMODE
 70
     0
  9
$REGENMODE
 70
     1
  9
$FILLMODE
 70
     1
  9
$QTEXTMODE
 70
     0
  9
$MIRRTEXT
 70
     1
  9
$LTSCALE
 40
1.0
  9
$ATTMODE
 70
     1
  9
$TEXTSIZE
 40
3.5
  9
$TRACEWID
 40
1.0
  9
$TEXTSTYLE
  7
Standard
  9
$CLAYER
  8
0
  9
$CELTYPE
  6
ByLayer
  9
$CECOLOR
 62
   256
  9
$CELTSCALE
 40
1.0
  9
$DISPSILH
 70
     0
  9
$DIMSCALE
 40
1.0
  9
$DIMASZ
 40
3.5
  9
$DIMEXO
 40
1.0
  9
$DIMDLI
 40
3.75
  9
$DIMRND
 40
0.0
  9
$DIMDLE
 40
0.0
  9
$DIMEXE
 40
1.0
  9
$DIMTP
 40
0.0
  9
$DIMTM
 40
0.0
  9
$DIMTXT
 40
3.5
  9
$DIMCEN
 40
2.5
  9
$DIMTSZ
 40
0.0
  9
$DIMTOL
 70
     0
  9
$DIMLIM
 70
     0
  9
$DIMTIH
 70
     1
  9
$DIMTOH
 70
     1
  9
$DIMSE1
 70
     0
  9
$DIMSE2
 70
     0
  9
$DIMTAD
 70
     1
  9
$DIMZIN
 70
     0
  9
$DIMBLK
  1

  9
$DIMASO
 70
     1
  9
$DIMSHO
 70
     1
  9
$DIMPOST
  1

  9
$DIMAPOST
  1

  9
$DIMALT
 70
     0
  9
$DIMALTD
 70
     3
  9
$DIMALTF
 40
0.0393700787
  9
$DIMLFAC
 40
1.0
  9
$DIMTOFL
 70
     1
  9
$DIMTVP
 40
0.0
  9
$DIMTIX
 70
     0
  9
$DIMSOXD
 70
     0
  9
$DIMSAH
 70
     0
  9
$DIMBLK1
  1

  9
$DIMBLK2
  1

  9
$DIMSTYLE
  2
ISO-25
  9
$DIMCLRD
 70
     0
  9
$DIMCLRE
 70
     0
  9
$DIMCLRT
 70
     0
  9
$DIMTFAC
 40
1.0
  9
$DIMGAP
 40
1.524
  9
$DIMJUST
 70
     0
  9
$DIMSD1
 70
     0
  9
$DIMSD2
 70
     0
  9
$DIMTOLJ
 70
     0
  9
$DIMTZIN
 70
     0
  9
$DIMALTZ
 70
     0
  9
$DIMALTTZ
 70
     0
  9
$DIMUPT
 70
     0
  9
$DIMDEC
 70
     2
  9
$DIMTDEC
 70
     2
  9
$DIMALTU
 70
     2
  9
$DIMALTTD
 70
     3
  9
$DIMTXSTY
  7
Standard
  9
$DIMAUNIT
 70
     0
  9
$DIMADEC
 70
     2
  9
$DIMALTRND
 40
0.0
  9
$DIMAZIN
 70
     0
  9
$DIMDSEP
 70
    44
  9
$DIMATFIT
 70
     3
  9
$DIMFRAC
 70
     0
  9
$DIMLDRBLK
  1

  9
$DIMLUNIT
 70
     2
  9
$DIMLWD
 70
    -2
  9
$DIMLWE
 70
    -2
  9
$DIMTMOVE
 70
     0
  9
$LUNITS
 70
     2
  9
$LUPREC
 70
     2
  9
$SKETCHINC
 40
1.0
  9
$FILLETRAD
 40
10.0
  9
$AUNITS
 70
     0
  9
$AUPREC
 70
     2
  9
$MENU
  1
.
  9
$ELEVATION
 40
0.0
  9
$PELEVATION
 40
0.0
  9
$THICKNESS
 40
0.0
  9
$LIMCHECK
 70
     0
  9
$CHAMFERA
 40
0.0
  9
$CHAMFERB
 40
0.0
  9
$CHAMFERC
 40
0.0
  9
$CHAMFERD
 40
0.0
  9
$SKPOLY
 70
     0
  9
$TDCREATE
 40
2458985.683775764
  9
$TDUCREATE
 40
2458985.558775764
  9
$TDUPDATE
 40
2458985.683776123
  9
$TDUUPDATE
 40
2458985.558776123
  9
$TDINDWG
 40
0.0000000116
  9
$TDUSRTIMER
 40
0.0000000116
  9
$USRTIMER
 70
     1
  9
$ANGBASE
 50
0.0
  9
$ANGDIR
 70
     0
  9
$PDMODE
 70
     0
  9
$PDSIZE
 40
-1.0
  9
$PLINEWID
 40
0.0
  9
$SPLFRAME
 70
     0
  9
$SPLINETYPE
 70
     6
  9
$SPLINESEGS
 70
     8
  9
$HANDSEED
  5
CB
  9
$SURFTAB1
 70
     6
  9
$SURFTAB2
 70
     6
  9
$SURFTYPE
 70
     6
  9
$SURFU
 70
     6
  9
$SURFV
 70
     6
  9
$UCSBASE
  2

  9
$UCSNAME
  2

  9
$UCSORG
 10
0.0
 20
0.0
 30
0.0
  9
$UCSXDIR
 10
1.0
 20
0.0
 30
0.0
  9
$UCSYDIR
 10
0.0
 20
1.0
 30
0.0
  9
$UCSORTHOREF
  2

  9
$UCSORTHOVIEW
 70
     0
  9
$UCSORGTOP
 10
0.0
 20
0.0
 30
0.0
  9
$UCSORGBOTTOM
 10
0.0
 20
0.0
 30
0.0
  9
$UCSORGLEFT
 10
0.0
 20
0.0
 30
0.0
  9
$UCSORGRIGHT
 10
0.0
 20
0.0
 30
0.0
  9
$UCSORGFRONT
 10
0.0
 20
0.0
 30
0.0
  9
$UCSORGBACK
 10
0.0
 20
0.0
 30
0.0
  9
$PUCSBASE
  2

  9
$PUCSNAME
  2

  9
$PUCSORG
 10
0.0
 20
0.0
 30
0.0
  9
$PUCSXDIR
 10
1.0
 20
0.0
 30
0.0
  9
$PUCSYDIR
 10
0.0
 20
1.0
 30
0.0
  9
$PUCSORTHOREF
  2

  9
$PUCSORTHOVIEW
 70
     0
  9
$PUCSORGTOP
 10
0.0
 20
0.0
 30
0.0
  9
$PUCSORGBOTTOM
 10
0.0
 20
0.0
 30
0.0
  9
$PUCSORGLEFT
 10
0.0
 20
0.0
 30
0.0
  9
$PUCSORGRIGHT
 10
0.0
 20
0.0
 30
0.0
  9
$PUCSORGFRONT
 10
0.0
 20
0.0
 30
0.0
  9
$PUCSORGBACK
 10
0.0
 20
0.0
 30
0.0
  9
$USERI1
 70
     0
  9
$USERI2
 70
     0
  9
$USERI3
 70
     0
  9
$USERI4
 70
     0
  9
$USERI5
 70
     0
  9
$USERR1
 40
0.0
  9
$USERR2
 40
0.0
  9
$USERR3
 40
0.0
  9
$USERR4
 40
0.0
  9
$USERR5
 40
0.0
  9
$WORLDVIEW
 70
     1
  9
$SHADEDGE
 70
     3
  9
$SHADEDIF
 70
    70
  9
$TILEMODE
 70
     1
  9
$MAXACTVP
 70
    64
  9
$PINSBASE
 10
0.0
 20
0.0
 30
0.0
  9
$PLIMCHECK
 70
     0
  9
$PEXTMIN
 10
1.0000000000E+20
 20
1.0000000000E+20
 30
1.0000000000E+20
  9
$PEXTMAX
 10
-1.0000000000E+20
 20
-1.0000000000E+20
 30
-1.0000000000E+20
  9
$PLIMMIN
 10
0.0
 20
0.0
  9
$PLIMMAX
 10
420.0
 20
297.0
  9
$UNITMODE
 70
     0
  9
$VISRETAIN
 70
     1
  9
$PLINEGEN
 70
     0
  9
$PSLTSCALE
 70
     1
  9
$TREEDEPTH
 70
  3020
  9
$CMLSTYLE
  2
Standard
  9
$CMLJUST
 70
     0
  9
$CMLSCALE
 40
20.0
  9
$PROXYGRAPHICS
 70
     1
  9
$MEASUREMENT
 70
     1
  9
$CELWEIGHT
370
    -1
  9
$ENDCAPS
280
     0
  9
$JOINSTYLE
280
     0
  9
$LWDISPLAY
290
     1
  9
$INSUNITS
 70
     4
  9
$HYPERLINKBASE
  1

  9
$STYLESHEET
  1

  9
$XEDIT
290
     1
  9
$CEPSNTYPE
380
     0
  9
$PSTYLEMODE
290
     1
  9
$FINGERPRINTGUID
  2
{4ada7282-5ee3-4212-85c8-a095bc9a342b}
  9
$VERSIONGUID
  2
{FAEB1C32-E019-11D5-929B-00C0DF256EC4}
  9
$EXTNAMES
290
     1
  9
$PSVPSCALE
 40
0.0
  9
$OLESTARTUP
290
     0
  0
ENDSEC
  0
SECTION
  2
CLASSES
  0
CLASS
  1
ACDBDICTIONARYWDFLT
  2
AcDbDictionaryWithDefault
  3
ObjectDBX Classes
 90
        0
280
     0
281
     0
  0
CLASS
  1
VISUALSTYLE
  2
AcDbVisualStyle
  3
ObjectDBX Classes
 90
     4095
280
     0
281
     0
  0
CLASS
  1
MATERIAL
  2
AcDbMaterial
  3
ObjectDBX Classes
 90
     1153
280
     0
281
     0
  0
CLASS
  1
SCALE
  2
AcDbScale
  3
ObjectDBX Classes
 90
     1153
280
     0
281
     0
  0
CLASS
  1
TABLESTYLE
  2
AcDbTableStyle
  3
ObjectDBX Classes
 90
     4095
280
     0
281
     0
  0
CLASS
  1
MLEADERSTYLE
  2
AcDbMLeaderStyle
  3
ACDB_MLEADERSTYLE_CLASS
 90
     4095
280
     0
281
     0
  0
CLASS
  1
SUN
  2
AcDbSun
  3
SCENEOE
 90
     1153
280
     0
281
     0
  0
CLASS
  1
ACDBPLACEHOLDER
  2
AcDbPlaceHolder
  3
ObjectDBX Classes
 90
        0
280
     0
281
     0
  0
CLASS
  1
LAYOUT
  2
AcDbLayout
  3
ObjectDBX Classes
 90
        0
280
     0
281
     0
  0
ENDSEC
  0
SECTION
  2
TABLES
  0
TABLE
  2
VPORT
  5
8
330
0
100
AcDbSymbolTable
 70
     1
  0
VPORT
  5
29
330
8
100
AcDbSymbolTableRecord
100
AcDbViewportTableRecord
  2
*Active
 70
     0
 10
0.0
 20
0.0
 11
1.0
 21
1.0
 12
139.7
 22
107.95
 13
0.0
 23
0.0
 14
10.0
 24
10.0
 15
10.0
 25
10.0
 16
0.0
 26
0.0
 36
1.0
 17
0.0
 27
0.0
 37
0.0
 40
215.9
 41
1.2941176471
 42
50.0
 43
0.0
 44
0.0
 50
0.0
 51
0.0
 71
     0
 72
  2000
 73
     1
 74
     3
 75
     0
 76
     0
 77
     0
 78
     0
281
     0
 65
     1
110
0.0
120
0.0
130
0.0
111
1.0
121
0.0
131
0.0
112
0.0
122
1.0
132
0.0
 79
     0
146
0.0
  0
ENDTAB
  0
TABLE
  2
LTYPE
  5
5
330
0
100
AcDbSymbolTable
 70
     6
  0
LTYPE
  5
14
330
5
100
AcDbSymbolTableRecord
100
AcDbLinetypeTableRecord
  2
ByBlock
 70
     0
  3

 72
    65
 73
     0
 40
0.0
  0
LTYPE
  5
15
330
5
100
AcDbSymbolTableRecord
100
AcDbLinetypeTableRecord
  2
ByLayer
 70
     0
  3

 72
    65
 73
     0
 40
0.0
  0
LTYPE
  5
16
330
5
100
AcDbSymbolTableRecord
100
AcDbLinetypeTableRecord
  2
Continuous
 70
     0
  3
Solid line
 72
    65
 73
     0
 40
0.0
  0
LTYPE
  5
6E
330
5
100
AcDbSymbolTableRecord
100
AcDbLinetypeTableRecord
  2
HIDDEN
 70
     0
  3
Hidden __ __ __ __ __ __ __ __ __ __ __ __ __ __
 72
    65
 73
     2
 40
1.905
 49
1.27
 74
     0
 49
-0.635
 74
     0
  0
LTYPE
  5
6F
330
5
100
AcDbSymbolTableRecord
100
AcDbLinetypeTableRecord
  2
PHANTOM
 70
     0
  3
Phantom ______  __  __  ______  __  __  ______
 72
    65
 73
     6
 40
12.7
 49
6.35
 74
     0
 49
-1.27
 74
     0
 49
1.27
 74
     0
 49
-1.27
 74
     0
 49
1.27
 74
     0
 49
-1.27
 74
     0
  0
LTYPE
  5
70
330
5
100
AcDbSymbolTableRecord
100
AcDbLinetypeTableRecord
  2
CENTER
 70
     0
  3
Center ____ _ ____ _ ____ _ ____ _ ____ _ ____
 72
    65
 73
     4
 40
10.16
 49
6.35
 74
     0
 49
-1.27
 74
     0
 49
1.27
 74
     0
 49
-1.27
 74
     0
  0
LTYPE
  5
71
330
5
100
AcDbSymbolTableRecord
100
AcDbLinetypeTableRecord
  2
CENTERX2
 70
     0
  3
Center (2x) ________  __  ________  __  _____
 72
    65
 73
     4
 40
20.32
 49
12.7
 74
     0
 49
-2.54
 74
     0
 49
2.54
 74
     0
 49
-2.54
 74
     0
  0
LTYPE
  5
72
330
5
100
AcDbSymbolTableRecord
100
AcDbLinetypeTableRecord
  2
DOT2
 70
     0
  3
Dot (.5x) ........................................
 72
    65
 73
     2
 40
0.635
 49
0.0
 74
     0
 49
-0.635
 74
     0
  0
ENDTAB
  0
TABLE
  2
LAYER
  5
2
330
0
100
AcDbSymbolTable
 70
    17
  0
LAYER
  5
10
330
2
100
AcDbSymbolTableRecord
100
AcDbLayerTableRecord
  2
0
 70
     0
 62
     7
  6
Continuous
370
    -3
390
F
  0
LAYER
  5
73
330
2
100
AcDbSymbolTableRecord
100
AcDbLayerTableRecord
  2
FORMAT
 70
     0
 62
     7
  6
Continuous
370
    -3
390
F
  0
LAYER
  5
74
330
2
100
AcDbSymbolTableRecord
100
AcDbLayerTableRecord
  2
YARDIMCI_GEOMETRI
 70
     0
 62
    -6
  6
Continuous
290
     0
370
    -3
390
F
  0
LAYER
  5
75
330
2
100
AcDbSymbolTableRecord
100
AcDbLayerTableRecord
  2
SAYFA_CERCEVESI
 70
     0
 62
     7
  6
Continuous
370
    25
390
F
  0
LAYER
  5
76
330
2
100
AcDbSymbolTableRecord
100
AcDbLayerTableRecord
  2
ANTET
 70
     0
 62
     7
  6
Continuous
370
    -3
390
F
  0
LAYER
  5
77
330
2
100
AcDbSymbolTableRecord
100
AcDbLayerTableRecord
  2
OLCU
 70
     0
 62
   150
  6
Continuous
370
    -3
390
F
  0
LAYER
  5
78
330
2
100
AcDbSymbolTableRecord
100
AcDbLayerTableRecord
  2
METIN
 70
     0
 62
    96
  6
Continuous
370
    -3
390
F
  0
LAYER
  5
79
330
2
100
AcDbSymbolTableRecord
100
AcDbLayerTableRecord
  2
BALON
 70
     0
 62
     5
  6
Continuous
370
    -3
390
F
  0
LAYER
  5
7A
330
2
100
AcDbSymbolTableRecord
100
AcDbLayerTableRecord
  2
VURGU
 70
     0
 62
     7
  6
Continuous
370
    -3
390
F
  0
LAYER
  5
7B
330
2
100
AcDbSymbolTableRecord
100
AcDbLayerTableRecord
  2
SILIK
 70
     0
 62
     7
  6
Continuous
370
    -3
390
F
  0
LAYER
  5
7C
330
2
100
AcDbSymbolTableRecord
100
AcDbLayerTableRecord
  2
MODEL
 70
     0
 62
     7
  6
Continuous
370
    -3
390
F
  0
LAYER
  5
7D
330
2
100
AcDbSymbolTableRecord
100
AcDbLayerTableRecord
  2
DETAYLANDıRMA
 70
     0
 62
   190
  6
Continuous
370
    -3
390
F
  0
LAYER
  5
7E
330
2
100
AcDbSymbolTableRecord
100
AcDbLayerTableRecord
  2
TOLERANS
 70
     0
 62
   230
  6
Continuous
370
    -3
390
F
  0
LAYER
  5
7F
330
2
100
AcDbSymbolTableRecord
100
AcDbLayerTableRecord
  2
MERKEZ_CIZGILERI
 70
     0
 62
    30
  6
Continuous
370
    -3
390
F
  0
LAYER
  5
80
330
2
100
AcDbSymbolTableRecord
100
AcDbLayerTableRecord
  2
KESIT-DETAY_CIZGILERI
 70
     0
 62
     7
  6
Continuous
370
    -3
390
F
  0
LAYER
  5
81
330
2
100
AcDbSymbolTableRecord
100
AcDbLayerTableRecord
  2
\U+041E\U+0421\U+0415\U+0412\U+042B\U+0415
 70
     0
 62
     7
  6
Continuous
370
    -3
390
F
  0
LAYER
  5
82
330
2
100
AcDbSymbolTableRecord
100
AcDbLayerTableRecord
  2
\U+0412\U+041E\U+0414\U+042F\U+041D\U+042B\U+0415_\U+0417\U+041D\U+0410\U+041A\U+0418
 70
     0
 62
    11
  6
Continuous
370
    -3
390
F
  0
ENDTAB
  0
TABLE
  2
STYLE
  5
3
330
0
100
AcDbSymbolTable
 70
     1
  0
STYLE
  5
11
330
3
100
AcDbSymbolTableRecord
100
AcDbTextStyleTableRecord
  2
Standard
 70
     0
 40
0.0
 41
1.0
 50
0.0
 71
     0
 42
3.5
  3
txt
  4

  0
ENDTAB
  0
TABLE
  2
VIEW
  5
6
330
0
100
AcDbSymbolTable
 70
     0
  0
ENDTAB
  0
TABLE
  2
UCS
  5
7
330
0
100
AcDbSymbolTable
 70
     0
  0
ENDTAB
  0
TABLE
  2
APPID
  5
9
330
0
100
AcDbSymbolTable
 70
     1
  0
APPID
  5
12
330
9
100
AcDbSymbolTableRecord
100
AcDbRegAppTableRecord
  2
ACAD
 70
     0
  0
ENDTAB
  0
TABLE
  2
DIMSTYLE
  5
A
330
0
100
AcDbSymbolTable
 70
     1
100
AcDbDimStyleTable
  0
DIMSTYLE
105
27
330
A
100
AcDbSymbolTableRecord
100
AcDbDimStyleTableRecord
  2
ISO-25
 70
     0
 41
2.5
 42
0.625
 43
3.75
 44
1.25
 73
     0
 74
     0
 77
     1
 78
     8
140
2.5
141
2.5
143
0.0393700787
147
0.625
171
     3
172
     1
178
     0
271
     2
272
     2
274
     3
278
    44
283
     0
284
     8
340
11
  0
ENDTAB
  0
TABLE
  2
BLOCK_RECORD
  5
1
330
0
100
AcDbSymbolTable
 70
     3
  0
BLOCK_RECORD
  5
1F
330
1
100
AcDbSymbolTableRecord
100
AcDbBlockTableRecord
  2
*Model_Space
340
22
  0
BLOCK_RECORD
  5
1B
330
1
100
AcDbSymbolTableRecord
100
AcDbBlockTableRecord
  2
*Paper_Space
340
1E
  0
BLOCK_RECORD
  5
23
330
1
100
AcDbSymbolTableRecord
100
AcDbBlockTableRecord
  2
*Paper_Space0
340
26
  0
BLOCK_RECORD
  5
88
330
1
100
AcDbSymbolTableRecord
100
AcDbBlockTableRecord
  2
SW_CENTERMARKSYMBOL_0
340
0
102
{BLKREFS
331
93
102
}
  0
BLOCK_RECORD
  5
B2
330
1
100
AcDbSymbolTableRecord
100
AcDbBlockTableRecord
  2
SW_CENTERMARKSYMBOL_1
340
0
102
{BLKREFS
331
BD
102
}
  0
ENDTAB
  0
ENDSEC
  0
SECTION
  2
BLOCKS
  0
BLOCK
  5
20
330
1F
100
AcDbEntity
  8
0
100
AcDbBlockBegin
  2
*Model_Space
 70
     0
 10
0.0
 20
0.0
 30
0.0
  3
*Model_Space
  1

  0
ENDBLK
  5
21
330
1F
100
AcDbEntity
  8
0
100
AcDbBlockEnd
  0
BLOCK
  5
1C
330
1B
100
AcDbEntity
 67
     1
  8
0
100
AcDbBlockBegin
  2
*Paper_Space
 70
     0
 10
0.0
 20
0.0
 30
0.0
  3
*Paper_Space
  1

  0
ENDBLK
  5
1D
330
1B
100
AcDbEntity
 67
     1
  8
0
100
AcDbBlockEnd
  0
BLOCK
  5
24
330
23
100
AcDbEntity
  8
0
100
AcDbBlockBegin
  2
*Paper_Space0
 70
     0
 10
0.0
 20
0.0
 30
0.0
  3
*Paper_Space0
  1

  0
ENDBLK
  5
25
330
23
100
AcDbEntity
  8
0
100
AcDbBlockEnd
  0
BLOCK
  5
89
330
88
100
AcDbEntity
  8
0
100
AcDbBlockBegin
  2
SW_CENTERMARKSYMBOL_0
 70
     0
 10
0.0
 20
0.0
 30
0.0
  3
SW_CENTERMARKSYMBOL_0
  1

  0
LINE
  5
8B
330
88
100
AcDbEntity
  8
FORMAT
 62
     0
100
AcDbLine
 10
0.0
 20
0.0
 30
0.0
 11
0.0
 21
2.5
 31
0.0
  0
LINE
  5
8C
330
88
100
AcDbEntity
  8
FORMAT
 62
     0
100
AcDbLine
 10
0.0
 20
0.0
 30
0.0
 11
-2.5
 21
0.0
 31
0.0
  0
LINE
  5
8D
330
88
100
AcDbEntity
  8
FORMAT
 62
     0
100
AcDbLine
 10
0.0
 20
0.0
 30
0.0
 11
0.0
 21
-2.5
 31
0.0
  0
LINE
  5
8E
330
88
100
AcDbEntity
  8
FORMAT
 62
     0
100
AcDbLine
 10
0.0
 20
0.0
 30
0.0
 11
2.5
 21
0.0
 31
0.0
  0
LINE
  5
8F
330
88
100
AcDbEntity
  8
FORMAT
 62
     0
100
AcDbLine
 10
0.0
 20
5.0
 30
0.0
 11
0.0
 21
180.0
 31
0.0
  0
LINE
  5
90
330
88
100
AcDbEntity
  8
FORMAT
 62
     0
100
AcDbLine
 10
-5.0
 20
0.0
 30
0.0
 11
-180.0
 21
0.0
 31
0.0
  0
LINE
  5
91
330
88
100
AcDbEntity
  8
FORMAT
 62
     0
100
AcDbLine
 10
0.0
 20
-5.0
 30
0.0
 11
0.0
 21
-180.0
 31
0.0
  0
LINE
  5
92
330
88
100
AcDbEntity
  8
FORMAT
 62
     0
100
AcDbLine
 10
5.0
 20
0.0
 30
0.0
 11
180.0
 21
0.0
 31
0.0
  0
ENDBLK
  5
8A
330
88
100
AcDbEntity
  8
0
100
AcDbBlockEnd
  0
BLOCK
  5
B3
330
B2
100
AcDbEntity
  8
0
100
AcDbBlockBegin
  2
SW_CENTERMARKSYMBOL_1
 70
     0
 10
0.0
 20
0.0
 30
0.0
  3
SW_CENTERMARKSYMBOL_1
  1

  0
LINE
  5
B5
330
B2
100
AcDbEntity
  8
FORMAT
 62
     0
100
AcDbLine
 10
0.0
 20
0.0
 30
0.0
 11
0.0
 21
2.5
 31
0.0
  0
LINE
  5
B6
330
B2
100
AcDbEntity
  8
FORMAT
 62
     0
100
AcDbLine
 10
0.0
 20
0.0
 30
0.0
 11
-2.5
 21
0.0
 31
0.0
  0
LINE
  5
B7
330
B2
100
AcDbEntity
  8
FORMAT
 62
     0
100
AcDbLine
 10
0.0
 20
0.0
 30
0.0
 11
0.0
 21
-2.5
 31
0.0
  0
LINE
  5
B8
330
B2
100
AcDbEntity
  8
FORMAT
 62
     0
100
AcDbLine
 10
0.0
 20
0.0
 30
0.0
 11
2.5
 21
0.0
 31
0.0
  0
LINE
  5
B9
330
B2
100
AcDbEntity
  8
FORMAT
 62
     0
100
AcDbLine
 10
0.0
 20
5.0
 30
0.0
 11
0.0
 21
115.0
 31
0.0
  0
LINE
  5
BA
330
B2
100
AcDbEntity
  8
FORMAT
 62
     0
100
AcDbLine
 10
-5.0
 20
0.0
 30
0.0
 11
-115.0
 21
0.0
 31
0.0
  0
LINE
  5
BB
330
B2
100
AcDbEntity
  8
FORMAT
 62
     0
100
AcDbLine
 10
0.0
 20
-5.0
 30
0.0
 11
0.0
 21
-115.0
 31
0.0
  0
LINE
  5
BC
330
B2
100
AcDbEntity
  8
FORMAT
 62
     0
100
AcDbLine
 10
5.0
 20
0.0
 30
0.0
 11
115.0
 21
0.0
 31
0.0
  0
ENDBLK
  5
B4
330
B2
100
AcDbEntity
  8
0
100
AcDbBlockEnd
  0
ENDSEC
  0
SECTION
  2
ENTITIES
  0
LINE
  5
83
330
1F
100
AcDbEntity
  8
0
  6
Continuous
 62
     7
370
    25
100
AcDbLine
 10
-13.4067425033
 20
-4.6456096008
 30
0.0
 11
645.2016690558
 21
-4.6456096008
 31
0.0
  0
LINE
  5
84
330
1F
100
AcDbEntity
  8
0
  6
Continuous
 62
     7
370
    25
100
AcDbLine
 10
645.2016690558
 20
220.3543903992
 30
0.0
 11
-13.398103968
 21
220.3543903992
 31
0.0
  0
CIRCLE
  5
85
330
1F
100
AcDbEntity
  8
0
  6
Continuous
 62
     7
370
    25
100
AcDbCircle
 10
-150.7983309442
 20
107.8543903992
 30
0.0
 40
145.2
  0
CIRCLE
  5
86
330
1F
100
AcDbEntity
  8
0
  6
Continuous
 62
     7
370
    25
100
AcDbCircle
 10
-150.7983309442
 20
107.8543903992
 30
0.0
 40
177.5
  0
LINE
  5
87
330
1F
100
AcDbEntity
  8
0
  6
Continuous
 62
     7
370
    25
100
AcDbLine
 10
645.2016690558
 20
220.3543903992
 30
0.0
 11
645.2016690558
 21
-4.6456096008
 31
0.0
  0
INSERT
  5
93
330
1F
100
AcDbEntity
  8
FORMAT
100
AcDbBlockReference
  2
SW_CENTERMARKSYMBOL_0
 10
-150.7983309442
 20
107.8543903992
 30
0.0
  0
LINE
  5
94
330
1F
100
AcDbEntity
  8
0
  6
Continuous
 62
     7
370
    25
100
AcDbLine
 10
-328.2983309442
 20
-305.1764749858
 30
0.0
 11
-328.2983309442
 21
-1094.1764749858
 31
0.0
  0
LINE
  5
95
330
1F
100
AcDbEntity
  8
0
  6
Continuous
 62
     7
370
    25
100
AcDbLine
 10
26.7016690558
 20
-587.2150864959
 30
0.0
 11
26.7016690558
 21
-305.1764749858
 31
0.0
  0
LINE
  5
96
330
1F
100
AcDbEntity
  8
0
  6
Continuous
 62
     7
370
    25
100
AcDbLine
 10
26.7016690558
 20
-1094.1764749858
 30
0.0
 11
26.7016690558
 21
-812.1764749858
 31
0.0
  0
LINE
  5
97
330
1F
100
AcDbEntity
  8
0
  6
Continuous
 62
     7
370
    25
100
AcDbLine
 10
26.7016690558
 20
-812.1764749858
 30
0.0
 11
645.2016690558
 21
-812.1764749858
 31
0.0
  0
LINE
  5
98
330
1F
100
AcDbEntity
  8
0
  6
Continuous
 62
     7
370
    25
100
AcDbLine
 10
645.2016690558
 20
-587.1764749858
 30
0.0
 11
26.6770824545
 21
-587.1764749858
 31
0.0
  0
SPLINE
  5
99
330
1F
100
AcDbEntity
  8
0
  6
Continuous
 62
     7
370
    25
100
AcDbSpline
210
0.0
220
0.0
230
1.0
 70
     8
 71
     3
 72
    49
 73
    45
 74
     0
 42
0.000000001
 43
0.00000001
 40
0.0
 40
0.0
 40
0.0
 40
0.0
 40
0.003283454498625
 40
0.0261637002697406
 40
0.0497759220889608
 40
0.0733893717482305
 40
0.0953214003265569
 40
0.1172548008808628
 40
0.1397166966881191
 40
0.162180117480884
 40
0.1863292033834638
 40
0.2104798562758105
 40
0.2351618956051655
 40
0.2598447505567874
 40
0.2875468254531018
 40
0.3152481434569876
 40
0.3437260614940969
 40
0.3721999170024344
 40
0.3942128082454016
 40
0.4162232181579322
 40
0.438825099332637
 40
0.4614241690785754
 40
0.4834721561167508
 40
0.505519222922595
 40
0.5283497765462857
 40
0.551182060455355
 40
0.5713050692929459
 40
0.5914299351509034
 40
0.6120074301163801
 40
0.6325867473644831
 40
0.6555633643458909
 40
0.6785417249303449
 40
0.701975039760664
 40
0.7254089894029395
 40
0.7531318162250422
 40
0.7808537582428283
 40
0.8093547788259889
 40
0.8378528859664724
 40
0.8657972043148768
 40
0.893737837150127
 40
0.9228003887576683
 40
0.9518591263538254
 40
0.9758284933767629
 40
1.0
 40
1.0
 40
1.0
 40
1.0
 10
26.67707234675429
 20
-587.2150864958636
 30
0.0
 10
26.68475707801851
 20
-587.2029407303978
 30
0.0
 10
26.7459916727216
 20
-587.1061590733576
 30
0.0
 10
26.48436042065744
 20
-587.5194910010453
 30
0.0
 10
25.8544663847321
 20
-588.5158848304142
 30
0.0
 10
24.81259693540724
 20
-590.178004752401
 30
0.0
 10
23.46418159865824
 20
-592.3515073007594
 30
0.0
 10
21.84386978173691
 20
-595.0004643815913
 30
0.0
 10
19.93994392480486
 20
-598.1671364059225
 30
0.0
 10
17.7292700138508
 20
-601.9262260110482
 30
0.0
 10
15.24369876146947
 20
-606.2686328132306
 30
0.0
 10
12.49650709739125
 20
-611.236834438421
 30
0.0
 10
9.591346718446193
 20
-616.7128542553552
 30
0.0
 10
6.460202228965928
 20
-622.923136929267
 30
0.0
 10
3.175663547921037
 20
-629.8708036339182
 30
0.0
 10
-0.2082856355765939
 20
-637.6653629283057
 30
0.0
 10
-3.471288083717022
 20
-646.0381781401168
 30
0.0
 10
-6.268808218542032
 20
-654.3006650531744
 30
0.0
 10
-8.54532916806633
 20
-662.2268150845998
 30
0.0
 10
-10.34879409714279
 20
-669.7598931454925
 30
0.0
 10
-11.80968155129614
 20
-677.5827996392541
 30
0.0
 10
-12.86042812768109
 20
-685.5879048297663
 30
0.0
 10
-13.44647162546758
 20
-693.6458069517755
 30
0.0
 10
-13.56946638783355
 20
-701.7832144323626
 30
0.0
 10
-13.19572635894881
 20
-709.998055872317
 30
0.0
 10
-12.37030214779641
 20
-717.8910724651269
 30
0.0
 10
-11.1849367139468
 20
-725.3197778444705
 30
0.0
 10
-9.729338869005122
 20
-732.3221848979545
 30
0.0
 10
-7.982013960596057
 20
-739.1811871343064
 30
0.0
 10
-5.907803419928193
 20
-746.128735515447
 30
0.0
 10
-3.537423965801728
 20
-753.0622333977304
 30
0.0
 10
-0.888625785962216
 20
-759.9732780713508
 30
0.0
 10
1.897250054968824
 20
-766.5889868929477
 30
0.0
 10
4.940637619604588
 20
-773.2713106833979
 30
0.0
 10
8.170122747657105
 20
-779.8773680275643
 30
0.0
 10
11.53681817897742
 20
-786.3470985839566
 30
0.0
 10
14.77665751647386
 20
-792.2641239285637
 30
0.0
 10
17.78558743544065
 20
-797.5321693850225
 30
0.0
 10
20.454779202662
 20
-802.055152130887
 30
0.0
 10
22.75584343183434
 20
-805.8526817334479
 30
0.0
 10
24.61253799957206
 20
-808.8575504861079
 30
0.0
 10
25.8587457923293
 20
-810.843510178736
 30
0.0
 10
26.5753211868032
 20
-811.9773602385278
 30
0.0
 10
26.65943536996626
 20
-812.1099178704825
 30
0.0
 10
26.70166905584359
 20
-812.1764749857999
 30
0.0
  0
LINE
  5
9A
330
1F
100
AcDbEntity
  8
0
  6
Continuous
 62
     7
370
    25
100
AcDbLine
 10
26.7016690558
 20
-1094.1764749858
 30
0.0
 11
-328.2983309442
 21
-1094.1764749858
 31
0.0
  0
LINE
  5
9B
330
1F
100
AcDbEntity
  8
0
  6
Continuous
 62
     7
370
    25
100
AcDbLine
 10
26.7016690558
 20
-305.1764749858
 30
0.0
 11
-328.2983309442
 21
-305.1764749858
 31
0.0
  0
LINE
  5
9C
330
1F
100
AcDbEntity
  8
0
  6
Continuous
 62
     7
370
    25
100
AcDbLine
 10
645.2016690558
 20
-587.1764749858
 30
0.0
 11
645.2016690558
 21
-812.1764749858
 31
0.0
  0
LINE
  5
9D
330
1F
100
AcDbEntity
  8
0
  6
Continuous
 62
     7
370
    25
100
AcDbLine
 10
26.7016690558
 20
1011.9244808616
 30
0.0
 11
26.7016690558
 21
1293.9244808616
 31
0.0
  0
LINE
  5
9E
330
1F
100
AcDbEntity
  8
0
  6
Continuous
 62
     7
370
    25
100
AcDbLine
 10
26.7016690558
 20
504.9244808616
 30
0.0
 11
26.7016690558
 21
786.9614228386
 31
0.0
  0
LINE
  5
9F
330
1F
100
AcDbEntity
  8
0
  6
Continuous
 62
     7
370
    25
100
AcDbLine
 10
-328.2983309442
 20
1293.9244808616
 30
0.0
 11
-328.2983309442
 21
504.9244808616
 31
0.0
  0
LINE
  5
A0
330
1F
100
AcDbEntity
  8
0
  6
Continuous
 62
     7
370
    25
100
AcDbLine
 10
26.6782772016
 20
786.9244808616
 30
0.0
 11
645.2016690558
 21
786.9244808616
 31
0.0
  0
LINE
  5
A1
330
1F
100
AcDbEntity
  8
0
  6
Continuous
 62
     7
370
    25
100
AcDbLine
 10
645.2016690558
 20
1011.9244808616
 30
0.0
 11
26.7016690558
 21
1011.9244808616
 31
0.0
  0
SPLINE
  5
A2
330
1F
100
AcDbEntity
  8
0
  6
Continuous
 62
     7
370
    25
100
AcDbSpline
210
0.0
220
0.0
230
1.0
 70
     8
 71
     3
 72
    48
 73
    44
 74
     0
 42
0.000000001
 43
0.00000001
 40
0.0
 40
0.0
 40
0.0
 40
0.0
 40
0.0230400868646937
 40
0.046260885426417
 40
0.0700398801919262
 40
0.094004422698961
 40
0.1170410639649248
 40
0.1402260795449139
 40
0.1638467214981986
 40
0.1876048358463862
 40
0.2125640254130242
 40
0.2376640872243365
 40
0.2631850928597602
 40
0.2888452149650514
 40
0.317147527253245
 40
0.3456489737870716
 40
0.3748317992381757
 40
0.4042857822491683
 40
0.4250925258011752
 40
0.4460264839680719
 40
0.4673925120373689
 40
0.4889222276451435
 40
0.5097337588007871
 40
0.5307045244235393
 40
0.5521627142306199
 40
0.5737800757674469
 40
0.5941639154685803
 40
0.6146599606417996
 40
0.6354736560756659
 40
0.6563838938971068
 40
0.6806714848465629
 40
0.7050880262388232
 40
0.7298880631055008
 40
0.7548153455420457
 40
0.783189730027752
 40
0.8117657248195201
 40
0.8410207160651758
 40
0.870535090174622
 40
0.8973375604490924
 40
0.9243790906191636
 40
0.9522370499077925
 40
0.9804030698940359
 40
1.0
 40
1.0
 40
1.0
 40
1.0
 10
26.70166905584356
 20
1011.924480861587
 30
0.0
 10
26.66333720268344
 20
1011.864052005326
 30
0.0
 10
26.5863728458372
 20
1011.742720327526
 30
0.0
 10
25.96181324274666
 20
1010.754944013979
 30
0.0
 10
24.96174038976282
 20
1009.162085006286
 30
0.0
 10
23.57918268676962
 20
1006.936431955091
 30
0.0
 10
21.87440407182043
 20
1004.151668111496
 30
0.0
 10
19.88402330546818
 20
1000.840592277088
 30
0.0
 10
17.61321399945604
 20
996.9756902643736
 30
0.0
 10
15.06067354148477
 20
992.5069940788221
 30
0.0
 10
12.26974863470634
 20
987.4475051266645
 30
0.0
 10
9.272994852446924
 20
981.7740091364333
 30
0.0
 10
6.166331965975297
 20
975.5727573848723
 30
0.0
 10
2.909952194535465
 20
968.6365742038226
 30
0.0
 10
-0.4120344402926412
 20
960.9443512241764
 30
0.0
 10
-3.711899897518578
 20
952.4060787835443
 30
0.0
 10
-6.772469858153274
 20
943.2497281256165
 30
0.0
 10
-9.182540536403577
 20
934.4694583966743
 30
0.0
 10
-10.95490183438758
 20
926.3155430583045
 30
0.0
 10
-12.19441017205755
 20
918.906815636679
 30
0.0
 10
-13.0652397197622
 20
911.2697391741789
 30
0.0
 10
-13.51320420609956
 20
903.5544712408953
 30
0.0
 10
-13.52706854356703
 20
895.8555752945628
 30
0.0
 10
-13.11530306708963
 20
888.1928151797873
 30
0.0
 10
-12.27717821932792
 20
880.5193695973002
 30
0.0
 10
-11.05569124187836
 20
873.057341505427
 30
0.0
 10
-9.519808329319396
 20
865.8868966098295
 30
0.0
 10
-7.727722795226876
 20
859.009432743268
 30
0.0
 10
-5.686178385837182
 20
852.3010035740142
 30
0.0
 10
-3.320240833756372
 20
845.4466265372902
 30
0.0
 10
-0.6525244414409825
 20
838.5338610084655
 30
0.0
 10
2.290562437842203
 20
831.6128025587112
 30
0.0
 10
5.321811175399649
 20
825.0331892449472
 30
0.0
 10
8.514337113950997
 20
818.54981517164
 30
0.0
 10
11.78972207376
 20
812.280467122702
 30
0.0
 10
15.07023037517854
 20
806.313296265716
 30
0.0
 10
18.13459457992841
 20
800.9671498288545
 30
0.0
 10
20.79344878030329
 20
796.4820121923995
 30
0.0
 10
22.98547126926159
 20
792.8748132043576
 30
0.0
 10
24.70675968627722
 20
790.0939066230603
 30
0.0
 10
25.94330048147381
 20
788.1226866023425
 30
0.0
 10
26.6134225720191
 20
787.0636437897447
 30
0.0
 10
26.65940211259399
 20
786.9911618587287
 30
0.0
 10
26.67826731755327
 20
786.9614228385609
 30
0.0
  0
LINE
  5
A3
330
1F
100
AcDbEntity
  8
0
  6
Continuous
 62
     7
370
    25
100
AcDbLine
 10
-328.2983309442
 20
1293.9244808616
 30
0.0
 11
26.7016690558
 21
1293.9244808616
 31
0.0
  0
LINE
  5
A4
330
1F
100
AcDbEntity
  8
0
  6
Continuous
 62
     7
370
    25
100
AcDbLine
 10
-328.2983309442
 20
504.9244808616
 30
0.0
 11
26.7016690558
 21
504.9244808616
 31
0.0
  0
LINE
  5
A5
330
1F
100
AcDbEntity
  8
0
  6
Continuous
 62
     7
370
    25
100
AcDbLine
 10
645.2016690558
 20
1011.9244808616
 30
0.0
 11
645.2016690558
 21
786.9244808616
 31
0.0
  0
LINE
  5
A6
330
1F
100
AcDbEntity
  8
0
  6
Continuous
 62
     7
370
    25
100
AcDbLine
 10
1030.7332411471
 20
-69.6456096008
 30
0.0
 11
1819.7332411471
 21
-69.6456096008
 31
0.0
  0
LINE
  5
A7
330
1F
100
AcDbEntity
  8
0
  6
Continuous
 62
     7
370
    25
100
AcDbLine
 10
1819.7332411471
 20
285.3543903992
 30
0.0
 11
1030.7332411471
 21
285.3543903992
 31
0.0
  0
LINE
  5
A8
330
1F
100
AcDbEntity
  8
0
  6
Continuous
 62
     7
370
    25
100
AcDbLine
 10
1819.7332411471
 20
285.3543903992
 30
0.0
 11
1819.7332411471
 21
-69.6456096008
 31
0.0
  0
LINE
  5
A9
330
1F
100
AcDbEntity
  8
0
  6
Continuous
 62
     7
370
    25
100
AcDbLine
 10
1030.7332411471
 20
285.3543903992
 30
0.0
 11
1030.7332411471
 21
-69.6456096008
 31
0.0
  0
LINE
  5
AA
330
1F
100
AcDbEntity
  8
0
  6
Continuous
 62
     7
370
    25
100
AcDbLine
 10
-606.0845400695
 20
285.3543903992
 30
0.0
 11
-1395.0845400695
 21
285.3543903992
 31
0.0
  0
LINE
  5
AB
330
1F
100
AcDbEntity
  8
0
  6
Continuous
 62
     7
370
    25
100
AcDbLine
 10
-1395.0845400695
 20
-69.6456096008
 30
0.0
 11
-606.0845400695
 21
-69.6456096008
 31
0.0
  0
CIRCLE
  5
AC
330
1F
100
AcDbEntity
  8
0
  6
Continuous
 62
     7
370
    25
100
AcDbCircle
 10
-1000.5845400695
 20
107.8543903992
 30
0.0
 40
94.29999999999995
  0
CIRCLE
  5
AD
330
1F
100
AcDbEntity
  8
0
  6
Continuous
 62
     7
370
    25
100
AcDbCircle
 10
-1000.5845400695
 20
107.8543903992
 30
0.0
 40
112.4999999999999
  0
LINE
  5
AE
330
1F
100
AcDbEntity
  8
0
  6
Continuous
 62
     7
370
    25
100
AcDbLine
 10
-1395.0845400695
 20
107.8543903992
 30
0.0
 11
-1395.0845400695
 21
285.3543903992
 31
0.0
  0
LINE
  5
AF
330
1F
100
AcDbEntity
  8
0
  6
Continuous
 62
     7
370
    25
100
AcDbLine
 10
-1395.0845400695
 20
-69.6456096008
 30
0.0
 11
-1395.0845400695
 21
107.8543903992
 31
0.0
  0
LINE
  5
B0
330
1F
100
AcDbEntity
  8
0
  6
Continuous
 62
     7
370
    25
100
AcDbLine
 10
-606.0845400695
 20
107.8543903992
 30
0.0
 11
-606.0845400695
 21
285.3543903992
 31
0.0
  0
LINE
  5
B1
330
1F
100
AcDbEntity
  8
0
  6
Continuous
 62
     7
370
    25
100
AcDbLine
 10
-606.0845400695
 20
-69.6456096008
 30
0.0
 11
-606.0845400695
 21
107.8543903992
 31
0.0
  0
INSERT
  5
BD
330
1F
100
AcDbEntity
  8
FORMAT
100
AcDbBlockReference
  2
SW_CENTERMARKSYMBOL_1
 10
-1000.5845400695
 20
107.8543903992
 30
0.0
  0
LINE
  5
BE
330
1F
100
AcDbEntity
  8
0
  6
Continuous
 62
     7
370
    25
100
AcDbLine
 10
1425.9356519859
 20
-816.3564568845
 30
0.0
 11
1876.5958918861
 21
-556.1958380646
 31
0.0
  0
LINE
  5
BF
330
1F
100
AcDbEntity
  8
0
  6
Continuous
 62
     7
370
    25
100
AcDbLine
 10
1764.1050344645
 20
-361.334844029
 30
0.0
 11
1313.4456287798
 21
-621.4949812665
 31
0.0
  0
LINE
  5
C0
330
1F
100
AcDbEntity
  8
0
  6
Continuous
 62
     7
370
    25
100
AcDbLine
 10
1625.1898780503
 20
-791.0085965367
 30
0.0
 11
1547.5170348018
 21
-746.1690185665
 31
0.0
  0
LINE
  5
C1
330
1F
100
AcDbEntity
  8
0
  6
Continuous
 62
     7
370
    25
100
AcDbLine
 10
1322.4987481588
 20
-616.268726693
 30
0.0
 11
1067.2826276942
 21
-468.9355964226
 31
0.0
  0
LINE
  5
C2
330
1F
100
AcDbEntity
  8
0
  6
Continuous
 62
     7
370
    25
100
AcDbLine
 10
889.7970526513
 20
-776.3829425678
 30
0.0
 11
1447.7043030074
 21
-1098.4559426818
 31
0.0
  0
LWPOLYLINE
  5
C3
330
1F
100
AcDbEntity
  8
0
  6
Continuous
 62
     7
370
    25
100
AcDbPolyline
 90
      104
 70
   128
 43
0.0
 10
1887.0306326412
 20
-497.2589835192
 10
1886.9066053362
 20
-492.4931704686
 10
1886.5349848109
 20
-487.6018876773
 10
1885.9171535182
 20
-482.6033310385
 10
1885.0554098309
 20
-477.5160955113
 10
1883.9529594923
 20
-472.3591059459
 10
1882.6139036899
 20
-467.1515466823
 10
1881.0432237993
 20
-461.9127901828
 10
1879.2467628529
 20
-456.6623249659
 10
1877.2312038034
 20
-451.4196831069
 10
1875.0040446628
 20
-446.2043675779
 10
1872.5735706094
 20
-441.0357796952
 10
1869.9488231664
 20
-435.9331469453
 10
1867.1395665665
 20
-430.915451457
 10
1864.1562514289
 20
-426.0013593872
 10
1861.0099758818
 20
-421.2091514811
 10
1857.7124442769
 20
-416.5566550668
 10
1854.2759236484
 20
-412.0611777367
 10
1850.7131980787
 20
-407.7394429617
 10
1847.0375211409
 20
-403.6075278789
 10
1843.2625665947
 20
-399.6808034839
 10
1839.4023775189
 20
-395.9738774493
 10
1835.4713140704
 20
-392.5005397834
 10
1831.4840000634
 20
-389.2737115305
 10
1827.455268568
 20
-386.3053967037
 10
1823.4001067298
 20
-383.606637629
 10
1819.3336000173
 20
-381.1874738674
 10
1815.2708761026
 20
-379.0569048671
 10
1811.2270485854
 20
-377.2228564846
 10
1807.2171607697
 20
-375.6921515005
 10
1803.2561297015
 20
-374.4704842377
 10
1799.3586906766
 20
-373.5623993787
 10
1795.5393424242
 20
-372.9712750589
 10
1791.8122931705
 20
-372.6993102996
 10
1788.1914077837
 20
-372.7475168275
 10
1784.6901561951
 20
-373.1157153111
 10
1781.3215632907
 20
-373.8025360279
 10
1778.0981604573
 20
-374.8054239598
 10
1775.0319389651
 20
-376.1206482978
 10
1772.1343053595
 20
-377.7433163209
 10
1769.4160390279
 20
-379.6673915975
 10
1766.8872520994
 20
-381.8857164413
 10
1764.5573518277
 20
-384.390038538
 10
1762.4350055946
 20
-387.1710416451
 10
1760.5281086677
 20
-390.2183802483
 10
1758.8437548286
 20
-393.5207180478
 10
1757.3882099844
 20
-397.0657701302
 10
1756.1668888574
 20
-400.8403486688
 10
1755.1843348425
 20
-404.8304119836
 10
1754.4442031051
 20
-409.021116777
 10
1753.9492469839
 20
-413.3968733518
 10
1753.7013077482
 20
-417.9414036063
 10
1753.7013077482
 20
-422.6378015894
 10
1753.9492469839
 20
-427.4685963921
 10
1754.4442031051
 20
-432.4158171406
 10
1755.1843348425
 20
-437.4610598486
 10
1756.1668888574
 20
-442.5855558819
 10
1757.3882099844
 20
-447.7702417788
 10
1758.8437548286
 20
-452.995830167
 10
1760.5281086677
 20
-458.2428815147
 10
1762.4350055946
 20
-463.4918764462
 10
1764.5573518277
 20
-468.7232883555
 10
1766.8872520994
 20
-473.9176560468
 10
1769.4160390279
 20
-479.0556561311
 10
1772.1343053596
 20
-484.1181749107
 10
1775.0319389651
 20
-489.086379483
 10
1778.0981604573
 20
-493.9417878009
 10
1781.3215632907
 20
-498.6663374265
 10
1784.6901561951
 20
-503.2424527248
 10
1788.1914077837
 20
-507.6531102464
 10
1791.8122931705
 20
-511.8819020557
 10
1795.5393424242
 20
-515.9130967693
 10
1799.3586906766
 20
-519.7316980781
 10
1803.2561297015
 20
-523.3235005344
 10
1807.2171607697
 20
-526.6751423973
 10
1811.2270485854
 20
-529.7741553389
 10
1815.2708761026
 20
-532.6090108274
 10
1819.3336000173
 20
-535.1691630142
 10
1823.4001067298
 20
-537.4450879651
 10
1827.455268568
 20
-539.4283190898
 10
1831.4840000634
 20
-541.1114786382
 10
1835.4713140704
 20
-542.4883051462
 10
1839.4023775189
 20
-543.5536767288
 10
1843.2625665947
 20
-544.3036301338
 10
1847.0375211409
 20
-544.7353754852
 10
1850.7131980787
 20
-544.847306662
 10
1854.2759236484
 20
-544.6390072728
 10
1857.7124442769
 20
-544.111252205
 10
1861.0099758818
 20
-543.2660047422
 10
1864.1562514289
 20
-542.1064092604
 10
1867.1395665665
 20
-540.636779531
 10
1869.9488231664
 20
-538.8625826732
 10
1872.5735706094
 20
-536.7904188156
 10
1875.0040446628
 20
-534.4279965441
 10
1877.2312038034
 20
-531.7841042245
 10
1879.2467628529
 20
-528.8685773101
 10
1881.0432237993
 20
-525.6922617524
 10
1882.6139036899
 20
-522.2669736538
 10
1883.9529594923
 20
-518.6054553112
 10
1885.0554098309
 20
-514.7213278132
 10
1885.9171535182
 20
-510.6290403692
 10
1886.5349848109
 20
-506.3438165573
 10
1886.9066053362
 20
-501.8815976916
 10
1887.0306326412
 20
-497.2589835192
  0
LWPOLYLINE
  5
C4
330
1F
100
AcDbEntity
  8
0
  6
Continuous
 62
     7
370
    25
100
AcDbPolyline
 90
      113
 70
   128
 43
0.0
 10
1899.8999760588
 20
-504.6882973368
 10
1899.7748299598
 20
-499.4653735743
 10
1899.3997854187
 20
-494.1143924519
 10
1898.7760224644
 20
-488.6521901358
 10
1897.9055036859
 20
-483.0959527355
 10
1896.7909680573
 20
-477.4631622293
 10
1895.4359223202
 20
-471.7715414602
 10
1893.8446299496
 20
-466.0389983727
 10
1892.0220977401
 20
-460.2835696683
 10
1889.9740600524
 20
-454.523364055
 10
1887.7069607706
 20
-448.7765052706
 10
1885.2279330278
 20
-443.0610750591
 10
1882.5447767626
 20
-437.3950562785
 10
1879.6659341771
 20
-431.7962763199
 10
1876.6004631753
 20
-426.2823510166
 10
1873.358008863
 20
-420.8706292175
 10
1869.948773201
 20
-415.5781382014
 10
1866.3834829061
 20
-410.4215301033
 10
1862.6733557005
 20
-405.4170295199
 10
1858.8300650171
 20
-400.5803824615
 10
1854.8657032702
 20
-395.9268068091
 10
1850.7927438085
 20
-391.4709444335
 10
1846.6240016694
 20
-387.2268151262
 10
1842.372593258
 20
-383.2077724882
 10
1838.0518950779
 20
-379.4264619144
 10
1833.6755016441
 20
-375.8947808069
 10
1829.2571827096
 20
-372.6238411411
 10
1824.8108399402
 20
-369.6239345033
 10
1820.3504631753
 20
-366.9044997096
 10
1815.8900864104
 20
-364.474093108
 10
1811.443743641
 20
-362.3403616569
 10
1807.0254247064
 20
-360.5100188647
 10
1802.6490312727
 20
-358.988823667
 10
1798.3283330926
 20
-357.7815623068
 10
1794.0769246811
 20
-356.8920332749
 10
1789.9081825421
 20
-356.3230353587
 10
1785.8352230804
 20
-356.0763588362
 10
1781.8708613335
 20
-356.1527798431
 10
1778.0275706501
 20
-356.5520579304
 10
1774.3174434445
 20
-357.2729368218
 10
1770.7521531496
 20
-358.3131483654
 10
1767.3429174876
 20
-359.6694196709
 10
1764.1004631753
 20
-361.337483407
 10
1761.0349921734
 20
-363.3120912281
 10
1758.156149588
 20
-365.5870302874
 10
1755.4729933227
 20
-368.155142785
 10
1752.99396558
 20
-371.0083484889
 10
1750.7268662982
 20
-374.1376701583
 10
1748.6788286105
 20
-377.5332617896
 10
1746.856296401
 20
-381.1844395952
 10
1745.2650040304
 20
-385.0797156189
 10
1743.9099582933
 20
-389.2068338813
 10
1742.7954226647
 20
-393.5528089414
 10
1741.9249038862
 20
-398.1039667538
 10
1741.3011409319
 20
-402.8459876923
 10
1740.9260963908
 20
-407.7639516046
 10
1740.8009502918
 20
-412.8423847568
 10
1740.9260963908
 20
-418.0653085193
 10
1741.3011409319
 20
-423.4162896417
 10
1741.9249038862
 20
-428.8784919577
 10
1742.7954226647
 20
-434.4347293581
 10
1743.9099582933
 20
-440.0675198643
 10
1745.2650040304
 20
-445.7591406334
 10
1746.856296401
 20
-451.4916837209
 10
1748.6788286105
 20
-457.2471124253
 10
1750.7268662982
 20
-463.0073180386
 10
1752.99396558
 20
-468.754176823
 10
1755.4729933228
 20
-474.4696070344
 10
1758.156149588
 20
-480.1356258151
 10
1761.0349921734
 20
-485.7344057737
 10
1764.1004631753
 20
-491.248331077
 10
1767.3429174876
 20
-496.6600528761
 10
1770.7521531496
 20
-501.9525438921
 10
1774.3174434445
 20
-507.1091519903
 10
1778.0275706501
 20
-512.1136525737
 10
1781.8708613335
 20
-516.9502996321
 10
1785.8352230804
 20
-521.6038752844
 10
1789.9081825421
 20
-526.05973766
 10
1794.0769246811
 20
-530.3038669673
 10
1798.3283330926
 20
-534.3229096054
 10
1802.6490312727
 20
-538.1042201792
 10
1807.0254247064
 20
-541.6359012867
 10
1811.443743641
 20
-544.9068409524
 10
1815.8900864104
 20
-547.9067475903
 10
1820.3504631753
 20
-550.6261823839
 10
1824.8108399402
 20
-553.0565889855
 10
1829.2571827096
 20
-555.1903204367
 10
1833.6755016441
 20
-557.0206632289
 10
1838.0518950779
 20
-558.5418584266
 10
1842.372593258
 20
-559.7491197868
 10
1846.6240016694
 20
-560.6386488187
 10
1850.7927438085
 20
-561.2076467349
 10
1854.8657032702
 20
-561.4543232573
 10
1858.8300650171
 20
-561.3779022505
 10
1862.6733557005
 20
-560.9786241631
 10
1866.3834829061
 20
-560.2577452718
 10
1869.948773201
 20
-559.2175337282
 10
1873.358008863
 20
-557.8612624227
 10
1876.6004631753
 20
-556.1931986866
 10
1879.6659341771
 20
-554.2185908655
 10
1882.5447767626
 20
-551.9436518062
 10
1885.2279330278
 20
-549.3755393086
 10
1887.7069607706
 20
-546.5223336047
 10
1889.9740600524
 20
-543.3930119353
 10
1892.0220977401
 20
-539.997420304
 10
1893.8446299496
 20
-536.3462424984
 10
1895.4359223202
 20
-532.4509664747
 10
1896.7909680573
 20
-528.3238482123
 10
1897.9055036859
 20
-523.9778731522
 10
1898.7760224644
 20
-519.4267153398
 10
1899.3997854187
 20
-514.6846944013
 10
1899.7748299598
 20
-509.766730489
 10
1899.8999760588
 20
-504.6882973368
  0
SPLINE
  5
C5
330
1F
100
AcDbEntity
  8
0
  6
Continuous
 62
     7
370
    25
100
AcDbSpline
210
0.0
220
0.0
230
1.0
 70
     8
 71
     3
 72
    39
 73
    35
 74
     0
 42
0.000000001
 43
0.00000001
 40
0.0
 40
0.0
 40
0.0
 40
0.0
 40
0.0306875941513905
 40
0.06186456468299
 40
0.0932876454598303
 40
0.1252065422417069
 40
0.1558895471250076
 40
0.1869650169995734
 40
0.2182310192552559
 40
0.2498749698705957
 40
0.2831186587623386
 40
0.3167381564741155
 40
0.3505419621180274
 40
0.3847192383438811
 40
0.422415705295007
 40
0.4603774034905946
 40
0.4992466451255592
 40
0.5384770474279208
 40
0.5661900029165778
 40
0.5942630988887686
 40
0.6225302909037772
 40
0.651206188640026
 40
0.6789255208423743
 40
0.707073689560798
 40
0.7354375709497994
 40
0.7642302062103282
 40
0.7913798868373547
 40
0.8188213126204089
 40
0.8464012267514713
 40
0.8742520285145822
 40
0.9066012005619333
 40
0.9392935831627284
 40
0.9721538343599659
 40
1.0
 40
1.0
 40
1.0
 40
1.0
 10
1303.455406127927
 20
-665.3165933379312
 30
0.0
 10
1303.471038616685
 20
-667.6425085439852
 30
0.0
 10
1303.502552886169
 20
-672.3314304256495
 30
0.0
 10
1303.760114942169
 20
-679.8850151162275
 30
0.0
 10
1304.179970996891
 20
-687.8194896935762
 30
0.0
 10
1304.774558640884
 20
-695.9661933033602
 30
0.0
 10
1305.539813436792
 20
-704.2532943310962
 30
0.0
 10
1306.47424170098
 20
-712.591922279344
 30
0.0
 10
1307.602027254192
 20
-721.0686470778185
 30
0.0
 10
1308.954216806193
 20
-729.739318900656
 30
0.0
 10
1310.561401147822
 20
-738.5669282581096
 30
0.0
 10
1312.454858838961
 20
-747.4752304468866
 30
0.0
 10
1314.643902284861
 20
-756.2994131728675
 30
0.0
 10
1317.241295070338
 20
-765.2496070913827
 30
0.0
 10
1320.331517559175
 20
-774.2424049508188
 30
0.0
 10
1324.035631369487
 20
-783.2008176666995
 30
0.0
 10
1328.345997678256
 20
-791.7573308081886
 30
0.0
 10
1332.85041365912
 20
-798.9748309293556
 30
0.0
 10
1337.371914943238
 20
-804.9136237136514
 30
0.0
 10
1341.73550315396
 20
-809.7193124625148
 30
0.0
 10
1346.521146075309
 20
-814.0698799014451
 30
0.0
 10
1351.648370825999
 20
-817.8405874757076
 30
0.0
 10
1357.096456322818
 20
-821.0108711640249
 30
0.0
 10
1362.807172677016
 20
-823.5577716834133
 30
0.0
 10
1368.826377451134
 20
-825.5001892161002
 30
0.0
 10
1374.950819557963
 20
-826.7881700200599
 30
0.0
 10
1381.117643492172
 20
-827.4675806416296
 30
0.0
 10
1387.248077819535
 20
-827.5882578129718
 30
0.0
 10
1393.435215873785
 20
-827.1794645491074
 30
0.0
 10
1399.943979268344
 20
-826.2095442792997
 30
0.0
 10
1406.732841127553
 20
-824.6046944076882
 30
0.0
 10
1413.699936728162
 20
-822.2767294855779
 30
0.0
 10
1420.153176337462
 20
-819.5470928549717
 30
0.0
 10
1424.102600965376
 20
-817.3334213214896
 30
0.0
 10
1425.914210645231
 20
-816.318005367041
 30
0.0
  0
SPLINE
  5
C6
330
1F
100
AcDbEntity
  8
0
  6
Continuous
 62
     7
370
    25
100
AcDbSpline
210
0.0
220
0.0
230
1.0
 70
     8
 71
     3
 72
    17
 73
    13
 74
     0
 42
0.000000001
 43
0.00000001
 40
0.0
 40
0.0
 40
0.0
 40
0.0
 40
0.0090169587790881
 40
0.1206170046201468
 40
0.2345471219683497
 40
0.3493408416237967
 40
0.4609825325763912
 40
0.5735942479739995
 40
0.6895615633739783
 40
0.806822712971697
 40
0.9030057886530555
 40
1.0
 40
1.0
 40
1.0
 40
1.0
 10
1313.460033100167
 20
-621.5211510864752
 30
0.0
 10
1313.391515207135
 20
-621.5493853424117
 30
0.0
 10
1312.474973031115
 20
-621.9270660507499
 30
0.0
 10
1311.025543456959
 20
-623.35043575019
 30
0.0
 10
1309.098930354943
 20
-625.906635129656
 30
0.0
 10
1307.511624859305
 20
-629.3675573204151
 30
0.0
 10
1306.196174176357
 20
-633.6275820984927
 30
0.0
 10
1305.140296971736
 20
-638.7487033963696
 30
0.0
 10
1304.32597556166
 20
-644.8159453475249
 30
0.0
 10
1303.802606557918
 20
-651.4242343429457
 30
0.0
 10
1303.506845228831
 20
-658.275583404085
 30
0.0
 10
1303.472600425273
 20
-662.963029292381
 30
0.0
 10
1303.455406127927
 20
-665.3165933379312
 30
0.0
  0
LWPOLYLINE
  5
C7
330
1F
100
AcDbEntity
  8
0
  6
Continuous
 62
     7
370
    25
100
AcDbPolyline
 90
      142
 70
   128
 43
0.0
 10
1104.0512938333
 20
-550.2030495709
 10
1103.9266981466
 20
-543.8185349291
 10
1103.5531584598
 20
-537.590551268
 10
1102.9314164013
 20
-531.5314636725
 10
1102.0627063825
 20
-525.6533019003
 10
1100.9487531465
 20
-519.9677364975
 10
1099.5917683446
 20
-514.4860556278
 10
1097.9944461444
 20
-509.2191426614
 10
1096.1599578813
 20
-504.1774545662
 10
1094.0919457619
 20
-499.3710011473
 10
1091.7945156329
 20
-494.8093251732
 10
1089.2722288291
 20
-490.5014834291
 10
1086.5300931175
 20
-486.4560287362
 10
1083.5735527548
 20
-482.6809929703
 10
1080.4084776781
 20
-479.1838711153
 10
1077.041151851
 20
-475.9716063832
 10
1073.4782607873
 20
-473.0505764281
 10
1069.7268782774
 20
-470.4265806846
 10
1065.794452344
 20
-468.1048288535
 10
1061.6887904548
 20
-466.089930558
 10
1057.4180440215
 20
-464.3858861922
 10
1052.9906922157
 20
-462.9960789785
 10
1048.4155251347
 20
-461.9232682504
 10
1043.7016263492
 20
-461.1695839743
 10
1038.858354869
 20
-460.7365225207
 10
1033.8953265611
 20
-460.6249436929
 10
1028.822395059
 20
-460.8350690204
 10
1023.6496321985
 20
-461.3664813188
 10
1018.3873080215
 20
-462.2181255181
 10
1013.0458703855
 20
-463.3883107576
 10
1007.6359242206
 20
-464.8747137429
 10
1002.1682104741
 20
-466.6743833584
 10
996.6535847855
 20
-468.7837465267
 10
991.1029959336
 20
-471.1986153024
 10
985.5274640989
 20
-473.9141951872
 10
979.9380589837
 20
-476.9250946485
 10
974.3458778344
 20
-480.2253358242
 10
968.7620234092
 20
-483.8083663909
 10
963.1975819341
 20
-487.667072573
 10
957.6636010925
 20
-491.7937932667
 10
952.1710680913
 20
-496.1803352499
 10
946.7308878462
 20
-500.8179894496
 10
941.3538613316
 20
-505.6975482327
 10
936.0506641359
 20
-510.8093236868
 10
930.8318252662
 20
-516.1431668551
 10
925.707706244
 20
-521.6884878855
 10
920.6884805334
 20
-527.4342770565
 10
915.7841133424
 20
-533.3691266356
 10
911.004341838
 20
-539.4812535282
 10
906.3586558143
 20
-545.7585226722
 10
901.8562788506
 20
-552.1884711307
 10
897.5061499998
 20
-558.7583328363
 10
893.31690604
 20
-565.4550639367
 10
889.2968643273
 20
-572.2653686922
 10
885.4540062824
 20
-579.175725873
 10
881.7959615442
 20
-586.1724156046
 10
878.3299928221
 20
-593.2415466073
 10
875.062981476
 20
-600.3690837757
 10
872.0014138546
 20
-607.5408760446
 10
869.1513684169
 20
-614.7426844843
 10
866.5185036645
 20
-621.9602105707
 10
864.1080469065
 20
-629.1791245739
 10
861.9247838817
 20
-636.3850940083
 10
859.9730492567
 20
-643.5638120887
 10
858.2567180201
 20
-650.7010261348
 10
856.7791977886
 20
-657.7825658688
 10
855.5434220418
 20
-664.7943715489
 10
854.5518442982
 20
-671.7225218842
 10
853.8064332434
 20
-678.5532616733
 10
853.3086688223
 20
-685.2730291148
 10
853.0595392999
 20
-691.8684827324
 10
853.0595392999
 20
-698.3265278633
 10
853.3086688223
 20
-704.6343426569
 10
853.8064332434
 20
-710.7794035307
 10
854.5518442982
 20
-716.7495100352
 10
855.5434220418
 20
-722.5328090764
 10
856.7791977886
 20
-728.1178184496
 10
858.2567180201
 20
-733.4934496355
 10
859.9730492567
 20
-738.6490298161
 10
861.9247838817
 20
-743.574323064
 10
864.1080469065
 20
-748.2595506656
 10
866.5185036645
 20
-752.6954105349
 10
869.1513684169
 20
-756.873095683
 10
872.0014138546
 20
-760.7843117026
 10
875.062981476
 20
-764.4212932363
 10
878.3299928221
 20
-767.7768193941
 10
881.7959615442
 20
-770.8442280892
 10
885.4540062824
 20
-773.6174292657
 10
889.2968643273
 20
-776.0909169893
 10
893.31690604
 20
-778.2597803791
 10
897.5061499998
 20
-780.1197133576
 10
901.8562788506
 20
-781.6670232001
 10
906.3586558143
 20
-782.8986378661
 10
911.0043418381
 20
-783.8121120986
 10
915.7841133424
 20
-784.4056322791
 10
920.6884805334
 20
-784.6780200283
 10
925.707706244
 20
-784.6287345455
 10
930.8318252662
 20
-784.2578736824
 10
936.0506641359
 20
-783.566173749
 10
941.3538613316
 20
-782.5550080514
 10
946.7308878462
 20
-781.2263841656
 10
952.1710680913
 20
-779.5829399513
 10
957.6636010925
 20
-777.6279383148
 10
963.1975819341
 20
-775.365260731
 10
968.7620234092
 20
-772.7993995367
 10
974.3458778344
 20
-769.9354490118
 10
979.9380589837
 20
-766.7790952651
 10
985.5274640989
 20
-763.3366049446
 10
991.1029959336
 20
-759.6148127964
 10
996.6535847855
 20
-755.6211080941
 10
1002.1682104741
 20
-751.3634199688
 10
1007.6359242206
 20
-746.8502016662
 10
1013.0458703855
 20
-742.0904137634
 10
1018.3873080215
 20
-737.0935063787
 10
1023.6496321985
 20
-731.8694004092
 10
1028.822395059
 20
-726.4284678338
 10
1033.8953265611
 20
-720.7815111204
 10
1038.858354869
 20
-714.9397417789
 10
1043.7016263492
 20
-708.9147581015
 10
1048.4155251347
 20
-702.7185221357
 10
1052.9906922157
 20
-696.3633359345
 10
1057.4180440215
 20
-689.8618171317
 10
1061.6887904548
 20
-683.2268738911
 10
1065.794452344
 20
-676.4716792784
 10
1069.7268782774
 20
-669.6096451072
 10
1073.4782607873
 20
-662.6543953111
 10
1077.041151851
 20
-655.6197388949
 10
1080.4084776781
 20
-648.5196425176
 10
1083.5735527548
 20
-641.3682027634
 10
1086.5300931175
 20
-634.1796181541
 10
1089.2722288291
 20
-626.9681609588
 10
1091.7945156329
 20
-619.7481488584
 10
1094.0919457619
 20
-612.5339165185
 10
1096.1599578813
 20
-605.3397871297
 10
1097.9944461444
 20
-598.18004397
 10
1099.5917683446
 20
-591.0689020467
 10
1100.9487531465
 20
-584.0204798738
 10
1102.0627063825
 20
-577.0487714411
 10
1102.9314164013
 20
-570.1676184304
 10
1103.5531584598
 20
-563.390682734
 10
1103.9266981466
 20
-556.7314193305
 10
1104.0512938333
 20
-550.2030495709
  0
LWPOLYLINE
  5
C8
330
1F
100
AcDbEntity
  8
0
  6
Continuous
 62
     7
370
    25
100
AcDbPolyline
 90
       19
 70
   128
 43
0.0
 10
1661.9585441895
 20
-872.276049685
 10
1661.8339485028
 20
-865.8915350432
 10
1661.460408816
 20
-859.663551382
 10
1660.8386667575
 20
-853.6044637866
 10
1659.9699567386
 20
-847.7263020144
 10
1658.8560035027
 20
-842.0407366115
 10
1657.4990187008
 20
-836.5590557419
 10
1655.9016965006
 20
-831.2921427754
 10
1654.0672082375
 20
-826.2504546802
 10
1651.9991961181
 20
-821.4440012614
 10
1649.7017659891
 20
-816.8823252872
 10
1647.1794791853
 20
-812.5744835432
 10
1644.4373434737
 20
-808.5290288503
 10
1641.480803111
 20
-804.7539930843
 10
1638.3157280342
 20
-801.2568712294
 10
1634.9484022072
 20
-798.0446064972
 10
1631.3855111435
 20
-795.1235765421
 10
1627.6341286336
 20
-792.4995807987
 10
1625.1898780503
 20
-791.0085965367
  0
LWPOLYLINE
  5
C9
330
1F
100
AcDbEntity
  8
0
  6
Continuous
 62
     7
370
    25
100
AcDbPolyline
 90
       54
 70
   128
 43
0.0
 10
1447.7043030074
 20
-1098.4559426818
 10
1451.2241563962
 20
-1100.3327804932
 10
1455.413400356
 20
-1102.1927134717
 10
1459.7635292068
 20
-1103.7400233142
 10
1464.2659061704
 20
-1104.9716379801
 10
1468.9115921942
 20
-1105.8851122126
 10
1473.6913636986
 20
-1106.4786323932
 10
1478.5957308896
 20
-1106.7510201423
 10
1483.6149566002
 20
-1106.7017346595
 10
1488.7390756224
 20
-1106.3308737964
 10
1493.9579144921
 20
-1105.639173863
 10
1499.2611116878
 20
-1104.6280081655
 10
1504.6381382024
 20
-1103.2993842796
 10
1510.0783184475
 20
-1101.6559400653
 10
1515.5708514487
 20
-1099.7009384289
 10
1521.1048322903
 20
-1097.438260845
 10
1526.6692737654
 20
-1094.8723996508
 10
1532.2531281906
 20
-1092.0084491259
 10
1537.8453093399
 20
-1088.8520953792
 10
1543.4347144551
 20
-1085.4096050587
 10
1549.0102462898
 20
-1081.6878129104
 10
1554.5608351417
 20
-1077.6941082081
 10
1560.0754608303
 20
-1073.4364200829
 10
1565.5431745768
 20
-1068.9232017802
 10
1570.9531207417
 20
-1064.1634138774
 10
1576.2945583777
 20
-1059.1665064927
 10
1581.5568825547
 20
-1053.9424005233
 10
1586.7296454151
 20
-1048.5014679478
 10
1591.8025769173
 20
-1042.8545112345
 10
1596.7656052251
 20
-1037.0127418929
 10
1601.6088767054
 20
-1030.9877582156
 10
1606.3227754909
 20
-1024.7915222498
 10
1610.8979425719
 20
-1018.4363360485
 10
1615.3252943777
 20
-1011.9348172457
 10
1619.596040811
 20
-1005.2998740051
 10
1623.7017027002
 20
-998.5446793924
 10
1627.6341286336
 20
-991.6826452212
 10
1631.3855111435
 20
-984.7273954252
 10
1634.9484022072
 20
-977.6927390089
 10
1638.3157280342
 20
-970.5926426316
 10
1641.480803111
 20
-963.4412028775
 10
1644.4373434737
 20
-956.2526182681
 10
1647.1794791853
 20
-949.0411610728
 10
1649.7017659891
 20
-941.8211489724
 10
1651.9991961181
 20
-934.6069166326
 10
1654.0672082375
 20
-927.4127872438
 10
1655.9016965006
 20
-920.2530440841
 10
1657.4990187008
 20
-913.1419021608
 10
1658.8560035027
 20
-906.0934799879
 10
1659.9699567386
 20
-899.1217715552
 10
1660.8386667575
 20
-892.2406185445
 10
1661.460408816
 20
-885.4636828481
 10
1661.8339485028
 20
-878.8044194446
 10
1661.9585441895
 20
-872.276049685
  0
LWPOLYLINE
  5
CA
330
1F
100
AcDbEntity
  8
0
  6
Continuous
 62
     7
370
    25
100
AcDbPolyline
 90
      128
 70
   128
 43
0.0
 10
1081.211744801
 20
-563.3880405769
 10
1081.0861171232
 20
-557.597245506
 10
1080.709541522
 20
-551.9656681104
 10
1080.0829395407
 20
-546.5070898036
 10
1079.2078445797
 20
-541.2348686415
 10
1078.0863981427
 20
-536.1619066326
 10
1076.7213445972
 20
-531.3006181652
 10
1075.116024458
 20
-526.6628996267
 10
1073.2743662124
 20
-522.2601002915
 10
1071.2008767068
 20
-518.1029945473
 10
1068.9006301174
 20
-514.2017555286
 10
1066.3792555332
 20
-510.565930221
 10
1063.6429231802
 20
-507.2044160983
 10
1060.6983293222
 20
-504.1254393487
 10
1057.5526798739
 20
-501.3365347444
 10
1054.2136727665
 20
-498.8445272022
 10
1050.6894791099
 20
-496.6555150823
 10
1046.9887231967
 20
-494.7748552641
 10
1043.1204613966
 20
-493.2071500372
 10
1039.0941599946
 20
-491.9562358392
 10
1034.9196720247
 20
-491.0251738666
 10
1030.6072131587
 20
-490.4162425841
 10
1026.1673367059
 20
-490.1309321486
 10
1021.6109077881
 20
-490.1699407626
 10
1016.9490767504
 20
-490.5331729655
 10
1012.1932518745
 20
-491.2197398671
 10
1007.3550714608
 20
-492.2279613232
 10
1002.4463753476
 20
-493.555370047
 10
997.4791759367
 20
-495.1987176469
 10
992.4656287974
 20
-497.1539825759
 10
987.4180029199
 20
-499.4163799731
 10
982.3486506904
 20
-501.9803733729
 10
977.2699776633
 20
-504.8396882539
 10
972.1944122026
 20
-507.9873273934
 10
967.1343750674
 20
-511.415587991
 10
962.1022490166
 20
-515.1160805185
 10
957.1103485058
 20
-519.0797492506
 10
952.170889552
 20
-523.2968944257
 10
947.2959598392
 20
-527.7571959828
 10
942.4974891371
 20
-532.4497388168
 10
937.7872201076
 20
-537.3630394889
 10
933.1766795684
 20
-542.485074329
 10
928.6771502848
 20
-547.8033088595
 10
924.2996433589
 20
-553.3047284695
 10
920.0548712837
 20
-558.9758702632
 10
915.9532217278
 20
-564.8028560064
 10
912.004732115
 20
-570.7714260885
 10
908.219065061
 20
-576.8669744182
 10
904.6054847274
 20
-583.0745841676
 10
901.1728341509
 20
-589.3790642752
 10
897.9295136026
 20
-595.7649866217
 10
894.8834600315
 20
-602.2167237852
 10
892.042127641
 20
-608.7184872836
 10
889.4124696475
 20
-615.2543662122
 10
887.000921265
 20
-621.8083661799
 10
884.8133839564
 20
-628.3644484507
 10
882.8552109919
 20
-634.9065691925
 10
881.1311943491
 20
-641.4187187397
 10
879.6455529856
 20
-647.884960771
 10
878.4019225146
 20
-654.2894713087
 10
877.4033463085
 20
-660.6165774422
 10
876.6522680504
 20
-666.8507956826
 10
876.1505257547
 20
-672.9768698531
 10
875.899347269
 20
-678.9798084238
 10
875.899347269
 20
-684.844921198
 10
876.1505257547
 20
-690.557855262
 10
876.6522680504
 20
-696.1046301087
 10
877.4033463085
 20
-701.4716718507
 10
878.4019225146
 20
-706.6458464374
 10
879.6455529856
 20
-711.6144917966
 10
881.1311943491
 20
-716.3654488204
 10
882.8552109919
 20
-720.8870911209
 10
884.8133839564
 20
-725.1683534817
 10
887.000921265
 20
-729.1987589365
 10
889.4124696475
 20
-732.9684444075
 10
892.042127641
 20
-736.4681848429
 10
894.8834600315
 20
-739.6894157913
 10
897.9295136026
 20
-742.6242543609
 10
901.1728341509
 20
-745.2655185097
 10
904.6054847274
 20
-747.6067446219
 10
908.219065061
 20
-749.6422033248
 10
912.004732115
 20
-751.3669135099
 10
915.9532217278
 20
-752.7766545224
 10
920.0548712837
 20
-753.8679764898
 10
924.2996433589
 20
-754.6382087643
 10
928.6771502848
 20
-755.0854664585
 10
933.1766795684
 20
-755.2086550579
 10
937.7872201076
 20
-755.0074730993
 10
942.4974891371
 20
-754.4824129087
 10
947.2959598392
 20
-753.6347593964
 10
952.170889552
 20
-752.4665869125
 10
957.1103485058
 20
-750.980754171
 10
962.1022490166
 20
-749.1808972533
 10
967.1343750674
 20
-747.0714207112
 10
972.1944122026
 20
-744.6574867871
 10
977.2699776633
 20
-741.9450027819
 10
982.3486506904
 20
-738.9406065984
 10
987.4180029199
 20
-735.6516504976
 10
992.4656287975
 20
-732.0861831062
 10
997.4791759367
 20
-728.2529297203
 10
1002.4463753476
 20
-724.1612709534
 10
1007.3550714608
 20
-719.8212197801
 10
1012.1932518745
 20
-715.2433970329
 10
1016.9490767504
 20
-710.4390054111
 10
1021.6109077881
 20
-705.4198020662
 10
1026.1673367059
 20
-700.1980698297
 10
1030.6072131587
 20
-694.7865871555
 10
1034.9196720247
 20
-689.1985968486
 10
1039.0941599946
 20
-683.4477736575
 10
1043.1204613966
 20
-677.5481908103
 10
1046.9887231967
 20
-671.5142855749
 10
1050.6894791099
 20
-665.3608239283
 10
1054.2136727665
 20
-659.1028644226
 10
1057.5526798739
 20
-652.7557213331
 10
1060.6983293222
 20
-646.3349271827
 10
1063.6429231802
 20
-639.8561947305
 10
1066.3792555332
 20
-633.3353785206
 10
1068.9006301174
 20
-626.7884360829
 10
1071.2008767068
 20
-620.2313888826
 10
1073.2743662124
 20
-613.680283113
 10
1075.116024458
 20
-607.1511504277
 10
1076.7213445972
 20
-600.6599687085
 10
1078.0863981427
 20
-594.2226229648
 10
1079.2078445797
 20
-587.8548664603
 10
1080.0829395407
 20
-581.5722821623
 10
1080.709541522
 20
-575.3902446072
 10
1081.0861171232
 20
-569.323882277
 10
1081.211744801
 20
-563.3880405769
  0
ENDSEC
  0
SECTION
  2
OBJECTS
  0
DICTIONARY
  5
C
330
0
100
AcDbDictionary
281
     1
  3
ACAD_GROUP
350
D
  3
ACAD_LAYOUT
350
1A
  3
ACAD_MLINESTYLE
350
17
  3
ACAD_PLOTSETTINGS
350
19
  3
ACAD_PLOTSTYLENAME
350
E
  3
ACAD_SCALELIST
350
47
  0
DICTIONARY
  5
D
102
{ACAD_REACTORS
330
C
102
}
330
C
100
AcDbDictionary
281
     1
  0
DICTIONARY
  5
1A
102
{ACAD_REACTORS
330
C
102
}
330
C
100
AcDbDictionary
281
     1
  3
Layout1
350
1E
  3
Layout2
350
26
  3
Model
350
22
  0
DICTIONARY
  5
17
102
{ACAD_REACTORS
330
C
102
}
330
C
100
AcDbDictionary
281
     1
  3
Standard
350
18
  0
DICTIONARY
  5
19
102
{ACAD_REACTORS
330
C
102
}
330
C
100
AcDbDictionary
281
     1
  0
ACDBDICTIONARYWDFLT
  5
E
102
{ACAD_REACTORS
330
C
102
}
330
C
100
AcDbDictionary
281
     1
  3
Normal
350
F
100
AcDbDictionaryWithDefault
340
F
  0
DICTIONARY
  5
47
102
{ACAD_REACTORS
330
C
102
}
330
C
100
AcDbDictionary
281
     1
  3
A0
350
48
  3
A1
350
49
  3
A2
350
4A
  3
A3
350
4B
  3
A4
350
4C
  3
A5
350
4D
  3
A6
350
4E
  3
A7
350
4F
  3
A8
350
50
  3
A9
350
51
  3
B0
350
52
  3
B1
350
53
  3
B2
350
54
  3
B3
350
55
  3
B4
350
56
  3
B5
350
57
  3
B6
350
58
  3
B7
350
59
  3
B8
350
5A
  3
B9
350
5B
  3
C0
350
5C
  3
C1
350
5D
  3
C2
350
5E
  3
C3
350
5F
  3
C4
350
60
  3
C5
350
61
  3
C6
350
62
  3
C7
350
63
  3
C8
350
64
  3
C9
350
65
  3
D0
350
66
  3
D1
350
67
  3
D2
350
68
  0
LAYOUT
  5
1E
102
{ACAD_REACTORS
330
1A
102
}
330
1A
100
AcDbPlotSettings
  1

  2
none_device
  4

  6

 40
0.0
 41
0.0
 42
0.0
 43
0.0
 44
0.0
 45
0.0
 46
0.0
 47
0.0
 48
0.0
 49
0.0
140
0.0
141
0.0
142
1.0
143
1.0
 70
   688
 72
     1
 73
     0
 74
     5
  7

 75
    16
147
1.0
148
0.0
149
0.0
100
AcDbLayout
  1
Layout1
 70
     1
 71
     1
 10
0.0
 20
0.0
 11
420.0
 21
297.0
 12
0.0
 22
0.0
 32
0.0
 14
1.0000000000E+20
 24
1.0000000000E+20
 34
1.0000000000E+20
 15
-1.0000000000E+20
 25
-1.0000000000E+20
 35
-1.0000000000E+20
146
0.0
 13
0.0
 23
0.0
 33
0.0
 16
1.0
 26
0.0
 36
0.0
 17
0.0
 27
1.0
 37
0.0
 76
     0
330
1B
  0
LAYOUT
  5
26
102
{ACAD_REACTORS
330
1A
102
}
330
1A
100
AcDbPlotSettings
  1

  2
none_device
  4

  6

 40
0.0
 41
0.0
 42
0.0
 43
0.0
 44
0.0
 45
0.0
 46
0.0
 47
0.0
 48
0.0
 49
0.0
140
0.0
141
0.0
142
1.0
143
1.0
 70
   688
 72
     1
 73
     0
 74
     5
  7

 75
    16
147
1.0
148
0.0
149
0.0
100
AcDbLayout
  1
Layout2
 70
     1
 71
     2
 10
0.0
 20
0.0
 11
0.0
 21
0.0
 12
0.0
 22
0.0
 32
0.0
 14
0.0
 24
0.0
 34
0.0
 15
0.0
 25
0.0
 35
0.0
146
0.0
 13
0.0
 23
0.0
 33
0.0
 16
1.0
 26
0.0
 36
0.0
 17
0.0
 27
1.0
 37
0.0
 76
     0
330
23
  0
LAYOUT
  5
22
102
{ACAD_REACTORS
330
1A
102
}
330
1A
100
AcDbPlotSettings
  1

  2
none_device
  4
Letter_(8.50_x_11.00_Inches)
  6

 40
6.35
 41
6.35
 42
6.35000508
 43
6.35000508
 44
215.9
 45
279.4
 46
0.0
 47
0.0
 48
0.0
 49
0.0
140
0.0
141
0.0
142
1.0
143
1.0
 70
  1712
 72
     1
 73
     0
 74
     0
  7

 75
     0
147
1.0
148
0.0
149
0.0
100
AcDbLayout
  1
Model
 70
     1
 71
     0
 10
0.0
 20
0.0
 11
279.4
 21
215.9
 12
0.0
 22
0.0
 32
0.0
 14
0.0
 24
0.0
 34
0.0
 15
279.4
 25
215.9
 35
0.0
146
0.0
 13
0.0
 23
0.0
 33
0.0
 16
1.0
 26
0.0
 36
0.0
 17
0.0
 27
1.0
 37
0.0
 76
     0
330
1F
331
29
  0
MLINESTYLE
  5
18
102
{ACAD_REACTORS
330
17
102
}
330
17
100
AcDbMlineStyle
  2
Standard
 70
     0
  3

 62
   256
 51
90.0
 52
90.0
 71
     2
 49
0.5
 62
   256
  6
BYLAYER
 49
-0.5
 62
   256
  6
BYLAYER
  0
ACDBPLACEHOLDER
  5
F
102
{ACAD_REACTORS
330
E
102
}
330
E
  0
SCALE
  5
48
102
{ACAD_REACTORS
330
47
102
}
330
47
100
AcDbScale
 70
     0
300
1:1
140
1.0
141
1.0
290
     1
  0
SCALE
  5
49
102
{ACAD_REACTORS
330
47
102
}
330
47
100
AcDbScale
 70
     0
300
1:2
140
1.0
141
2.0
290
     0
  0
SCALE
  5
4A
102
{ACAD_REACTORS
330
47
102
}
330
47
100
AcDbScale
 70
     0
300
1:4
140
1.0
141
4.0
290
     0
  0
SCALE
  5
4B
102
{ACAD_REACTORS
330
47
102
}
330
47
100
AcDbScale
 70
     0
300
1:5
140
1.0
141
5.0
290
     0
  0
SCALE
  5
4C
102
{ACAD_REACTORS
330
47
102
}
330
47
100
AcDbScale
 70
     0
300
1:8
140
1.0
141
8.0
290
     0
  0
SCALE
  5
4D
102
{ACAD_REACTORS
330
47
102
}
330
47
100
AcDbScale
 70
     0
300
1:10
140
1.0
141
10.0
290
     0
  0
SCALE
  5
4E
102
{ACAD_REACTORS
330
47
102
}
330
47
100
AcDbScale
 70
     0
300
1:16
140
1.0
141
16.0
290
     0
  0
SCALE
  5
4F
102
{ACAD_REACTORS
330
47
102
}
330
47
100
AcDbScale
 70
     0
300
1:20
140
1.0
141
20.0
290
     0
  0
SCALE
  5
50
102
{ACAD_REACTORS
330
47
102
}
330
47
100
AcDbScale
 70
     0
300
1:30
140
1.0
141
30.0
290
     0
  0
SCALE
  5
51
102
{ACAD_REACTORS
330
47
102
}
330
47
100
AcDbScale
 70
     0
300
1:40
140
1.0
141
40.0
290
     0
  0
SCALE
  5
52
102
{ACAD_REACTORS
330
47
102
}
330
47
100
AcDbScale
 70
     0
300
1:50
140
1.0
141
50.0
290
     0
  0
SCALE
  5
53
102
{ACAD_REACTORS
330
47
102
}
330
47
100
AcDbScale
 70
     0
300
1:100
140
1.0
141
100.0
290
     0
  0
SCALE
  5
54
102
{ACAD_REACTORS
330
47
102
}
330
47
100
AcDbScale
 70
     0
300
2:1
140
2.0
141
1.0
290
     0
  0
SCALE
  5
55
102
{ACAD_REACTORS
330
47
102
}
330
47
100
AcDbScale
 70
     0
300
4:1
140
4.0
141
1.0
290
     0
  0
SCALE
  5
56
102
{ACAD_REACTORS
330
47
102
}
330
47
100
AcDbScale
 70
     0
300
8:1
140
8.0
141
1.0
290
     0
  0
SCALE
  5
57
102
{ACAD_REACTORS
330
47
102
}
330
47
100
AcDbScale
 70
     0
300
10:1
140
10.0
141
1.0
290
     0
  0
SCALE
  5
58
102
{ACAD_REACTORS
330
47
102
}
330
47
100
AcDbScale
 70
     0
300
100:1
140
100.0
141
1.0
290
     0
  0
SCALE
  5
59
102
{ACAD_REACTORS
330
47
102
}
330
47
100
AcDbScale
 70
     0
300
1/128" = 1'-0"
140
0.0078125
141
12.0
290
     0
  0
SCALE
  5
5A
102
{ACAD_REACTORS
330
47
102
}
330
47
100
AcDbScale
 70
     0
300
1/64" = 1'-0"
140
0.015625
141
12.0
290
     0
  0
SCALE
  5
5B
102
{ACAD_REACTORS
330
47
102
}
330
47
100
AcDbScale
 70
     0
300
1/32" = 1'-0"
140
0.03125
141
12.0
290
     0
  0
SCALE
  5
5C
102
{ACAD_REACTORS
330
47
102
}
330
47
100
AcDbScale
 70
     0
300
1/16" = 1'-0"
140
0.0625
141
12.0
290
     0
  0
SCALE
  5
5D
102
{ACAD_REACTORS
330
47
102
}
330
47
100
AcDbScale
 70
     0
300
3/32" = 1'-0"
140
0.09375
141
12.0
290
     0
  0
SCALE
  5
5E
102
{ACAD_REACTORS
330
47
102
}
330
47
100
AcDbScale
 70
     0
300
1/8" = 1'-0"
140
0.125
141
12.0
290
     0
  0
SCALE
  5
5F
102
{ACAD_REACTORS
330
47
102
}
330
47
100
AcDbScale
 70
     0
300
3/16" = 1'-0"
140
0.1875
141
12.0
290
     0
  0
SCALE
  5
60
102
{ACAD_REACTORS
330
47
102
}
330
47
100
AcDbScale
 70
     0
300
1/4" = 1'-0"
140
0.25
141
12.0
290
     0
  0
SCALE
  5
61
102
{ACAD_REACTORS
330
47
102
}
330
47
100
AcDbScale
 70
     0
300
3/8" = 1'-0"
140
0.375
141
12.0
290
     0
  0
SCALE
  5
62
102
{ACAD_REACTORS
330
47
102
}
330
47
100
AcDbScale
 70
     0
300
1/2" = 1'-0"
140
0.5
141
12.0
290
     0
  0
SCALE
  5
63
102
{ACAD_REACTORS
330
47
102
}
330
47
100
AcDbScale
 70
     0
300
3/4" = 1'-0"
140
0.75
141
12.0
290
     0
  0
SCALE
  5
64
102
{ACAD_REACTORS
330
47
102
}
330
47
100
AcDbScale
 70
     0
300
1" = 1'-0"
140
1.0
141
12.0
290
     0
  0
SCALE
  5
65
102
{ACAD_REACTORS
330
47
102
}
330
47
100
AcDbScale
 70
     0
300
1-1/2" = 1'-0"
140
1.5
141
12.0
290
     0
  0
SCALE
  5
66
102
{ACAD_REACTORS
330
47
102
}
330
47
100
AcDbScale
 70
     0
300
3" = 1'-0"
140
3.0
141
12.0
290
     0
  0
SCALE
  5
67
102
{ACAD_REACTORS
330
47
102
}
330
47
100
AcDbScale
 70
     0
300
6" = 1'-0"
140
6.0
141
12.0
290
     0
  0
SCALE
  5
68
102
{ACAD_REACTORS
330
47
102
}
330
47
100
AcDbScale
 70
     0
300
1'-0" = 1'-0"
140
12.0
141
12.0
290
     0
  0
ENDSEC
  0
EOF
